ISO-10303-21;
HEADER;
/****************************************************************
 * Generated by software with PDE/Lib inside                    *
 * PDElib Version v51a, created Thu 12/14/2006                  *
 * International Technegroup Inc. (www.iti-oh.com)              *
 ****************************************************************/
FILE_DESCRIPTION((''),'2;1');
FILE_NAME('\\\\futek\\company\\Engineering\\New ERP Product\\Load\\LLB200\\3-D Model\\LLB200.stp','2010-11-09T11:25:10',('thomasl'),(''),'Autodesk Inventor 2008','Autodesk Inventor 2008','');
FILE_SCHEMA(('AUTOMOTIVE_DESIGN { 1 0 10303 214 1 1 1 1 }'));
ENDSEC;
DATA;
#5=APPLICATION_CONTEXT('automotive design');
#6=APPLICATION_PROTOCOL_DEFINITION('International Standard','automotive_design',2001,#5);
#7=PRODUCT_CONTEXT('',#5,'mechanical');
#8=PRODUCT('LLB200','LLB200',$,(#7));
#9=PRODUCT_RELATED_PRODUCT_CATEGORY('part',$,(#8));
#10=PRODUCT_DEFINITION_FORMATION('',$,#8);
#11=PRODUCT_DEFINITION_CONTEXT('part definition',#5,'design');
#12=PRODUCT_DEFINITION('',$,#10,#11);
#18=(NAMED_UNIT(*)PLANE_ANGLE_UNIT()SI_UNIT($,.RADIAN.));
#19=DIMENSIONAL_EXPONENTS(0.0,0.0,0.0,0.0,0.0,0.0,0.0);
#20=PLANE_ANGLE_MEASURE_WITH_UNIT(PLANE_ANGLE_MEASURE(0.017453292500000),#18);
#24=(CONVERSION_BASED_UNIT('DEGREE',#20)NAMED_UNIT(#19)PLANE_ANGLE_UNIT());
#28=(NAMED_UNIT(*)SI_UNIT($,.STERADIAN.)SOLID_ANGLE_UNIT());
#32=(LENGTH_UNIT()NAMED_UNIT(*)SI_UNIT(.CENTI.,.METRE.));
#33=DIMENSIONAL_EXPONENTS(1.0,0.0,0.0,0.0,0.0,0.0,0.0);
#34=LENGTH_MEASURE_WITH_UNIT(LENGTH_MEASURE(2.540000000000000),#32);
#38=(CONVERSION_BASED_UNIT('INCH',#34)LENGTH_UNIT()NAMED_UNIT(#33));
#40=UNCERTAINTY_MEASURE_WITH_UNIT(LENGTH_MEASURE(0.000393700787402),#38,'DISTANCE_ACCURACY_VALUE','');
#42=(GEOMETRIC_REPRESENTATION_CONTEXT(3)GLOBAL_UNCERTAINTY_ASSIGNED_CONTEXT((#40))GLOBAL_UNIT_ASSIGNED_CONTEXT((#24,#28,#38))REPRESENTATION_CONTEXT('None','None'));
#43=AXIS2_PLACEMENT_3D('',#44,#45,#46);
#44=CARTESIAN_POINT('',(0.0,0.0,0.0));
#45=DIRECTION('',(0.0,0.0,1.0));
#46=DIRECTION('',(1.0,0.0,0.0));
#47=SHAPE_REPRESENTATION('',(#43,#602),#42);
#48=PRODUCT_DEFINITION_SHAPE('','',#12);
#49=SHAPE_DEFINITION_REPRESENTATION(#48,#47);
#50=APPLICATION_CONTEXT('automotive design');
#51=APPLICATION_PROTOCOL_DEFINITION('International Standard','automotive_design',2001,#50);
#52=PRODUCT_CONTEXT('',#50,'mechanical');
#53=PRODUCT('~~PART1 (~1)','~~PART1 (~1)',$,(#52));
#54=PRODUCT_RELATED_PRODUCT_CATEGORY('part',$,(#53));
#55=PRODUCT_DEFINITION_FORMATION('',$,#53);
#56=PRODUCT_DEFINITION_CONTEXT('part definition',#50,'design');
#57=PRODUCT_DEFINITION('',$,#55,#56);
#63=(NAMED_UNIT(*)PLANE_ANGLE_UNIT()SI_UNIT($,.RADIAN.));
#64=DIMENSIONAL_EXPONENTS(0.0,0.0,0.0,0.0,0.0,0.0,0.0);
#65=PLANE_ANGLE_MEASURE_WITH_UNIT(PLANE_ANGLE_MEASURE(0.017453292500000),#63);
#69=(CONVERSION_BASED_UNIT('DEGREE',#65)NAMED_UNIT(#64)PLANE_ANGLE_UNIT());
#73=(NAMED_UNIT(*)SI_UNIT($,.STERADIAN.)SOLID_ANGLE_UNIT());
#77=(LENGTH_UNIT()NAMED_UNIT(*)SI_UNIT(.CENTI.,.METRE.));
#78=DIMENSIONAL_EXPONENTS(1.0,0.0,0.0,0.0,0.0,0.0,0.0);
#79=LENGTH_MEASURE_WITH_UNIT(LENGTH_MEASURE(2.540000000000000),#77);
#83=(CONVERSION_BASED_UNIT('INCH',#79)LENGTH_UNIT()NAMED_UNIT(#78));
#85=UNCERTAINTY_MEASURE_WITH_UNIT(LENGTH_MEASURE(0.000393700787402),#83,'DISTANCE_ACCURACY_VALUE','');
#87=(GEOMETRIC_REPRESENTATION_CONTEXT(3)GLOBAL_UNCERTAINTY_ASSIGNED_CONTEXT((#85))GLOBAL_UNIT_ASSIGNED_CONTEXT((#69,#73,#83))REPRESENTATION_CONTEXT('None','None'));
#88=AXIS2_PLACEMENT_3D('',#89,#90,#91);
#89=CARTESIAN_POINT('',(0.0,0.0,0.0));
#90=DIRECTION('',(0.0,0.0,1.0));
#91=DIRECTION('',(1.0,0.0,0.0));
#92=SHAPE_REPRESENTATION('',(#88,#260,#590),#87);
#93=PRODUCT_DEFINITION_SHAPE('','',#57);
#94=SHAPE_DEFINITION_REPRESENTATION(#93,#92);
#95=APPLICATION_CONTEXT('automotive design');
#96=APPLICATION_PROTOCOL_DEFINITION('International Standard','automotive_design',2001,#95);
#97=PRODUCT_CONTEXT('',#95,'mechanical');
#98=PRODUCT('F999','F999',$,(#97));
#99=PRODUCT_RELATED_PRODUCT_CATEGORY('part',$,(#98));
#100=PRODUCT_DEFINITION_FORMATION('',$,#98);
#101=PRODUCT_DEFINITION_CONTEXT('part definition',#95,'design');
#102=PRODUCT_DEFINITION('',$,#100,#101);
#108=(NAMED_UNIT(*)PLANE_ANGLE_UNIT()SI_UNIT($,.RADIAN.));
#109=DIMENSIONAL_EXPONENTS(0.0,0.0,0.0,0.0,0.0,0.0,0.0);
#110=PLANE_ANGLE_MEASURE_WITH_UNIT(PLANE_ANGLE_MEASURE(0.017453292500000),#108);
#114=(CONVERSION_BASED_UNIT('DEGREE',#110)NAMED_UNIT(#109)PLANE_ANGLE_UNIT());
#118=(NAMED_UNIT(*)SI_UNIT($,.STERADIAN.)SOLID_ANGLE_UNIT());
#122=(LENGTH_UNIT()NAMED_UNIT(*)SI_UNIT(.CENTI.,.METRE.));
#123=DIMENSIONAL_EXPONENTS(1.0,0.0,0.0,0.0,0.0,0.0,0.0);
#124=LENGTH_MEASURE_WITH_UNIT(LENGTH_MEASURE(2.540000000000000),#122);
#128=(CONVERSION_BASED_UNIT('INCH',#124)LENGTH_UNIT()NAMED_UNIT(#123));
#130=UNCERTAINTY_MEASURE_WITH_UNIT(LENGTH_MEASURE(0.000393700787402),#128,'DISTANCE_ACCURACY_VALUE','');
#132=(GEOMETRIC_REPRESENTATION_CONTEXT(3)GLOBAL_UNCERTAINTY_ASSIGNED_CONTEXT((#130))GLOBAL_UNIT_ASSIGNED_CONTEXT((#114,#118,#128))REPRESENTATION_CONTEXT('None','None'));
#133=AXIS2_PLACEMENT_3D('',#134,#135,#136);
#134=CARTESIAN_POINT('',(0.0,0.0,0.0));
#135=DIRECTION('',(0.0,0.0,1.0));
#136=DIRECTION('',(1.0,0.0,0.0));
#137=SHAPE_REPRESENTATION('',(#133),#132);
#138=PRODUCT_DEFINITION_SHAPE('','',#102);
#139=SHAPE_DEFINITION_REPRESENTATION(#138,#137);
#145=(NAMED_UNIT(*)PLANE_ANGLE_UNIT()SI_UNIT($,.RADIAN.));
#146=DIMENSIONAL_EXPONENTS(0.0,0.0,0.0,0.0,0.0,0.0,0.0);
#147=PLANE_ANGLE_MEASURE_WITH_UNIT(PLANE_ANGLE_MEASURE(0.017453292500000),#145);
#151=(CONVERSION_BASED_UNIT('DEGREE',#147)NAMED_UNIT(#146)PLANE_ANGLE_UNIT());
#155=(NAMED_UNIT(*)SI_UNIT($,.STERADIAN.)SOLID_ANGLE_UNIT());
#159=(LENGTH_UNIT()NAMED_UNIT(*)SI_UNIT(.MILLI.,.METRE.));
#161=UNCERTAINTY_MEASURE_WITH_UNIT(LENGTH_MEASURE(0.000001000000000),#159,'DISTANCE_ACCURACY_VALUE','');
#163=(GEOMETRIC_REPRESENTATION_CONTEXT(3)GLOBAL_UNCERTAINTY_ASSIGNED_CONTEXT((#161))GLOBAL_UNIT_ASSIGNED_CONTEXT((#151,#155,#159))REPRESENTATION_CONTEXT('','3D'));
#164=CARTESIAN_POINT('',(7.843825195667424,1.801967501246344,-0.157499999999995));
#165=CARTESIAN_POINT('',(7.843823366913846,1.815711968961215,-0.157499999999995));
#166=CARTESIAN_POINT('',(7.862016749435895,1.842535240571743,-0.157499999999995));
#167=CARTESIAN_POINT('',(7.909868151687147,1.833024274344277,-0.157499999999995));
#168=CARTESIAN_POINT('',(7.919393235048941,1.785175336563041,-0.157499999999995));
#169=CARTESIAN_POINT('',(7.883507893572236,1.761174609888293,-0.157499999999995));
#170=CARTESIAN_POINT('',(7.851412858027405,1.774552296092252,-0.157499999999995));
#171=CARTESIAN_POINT('',(7.843826414836478,1.792804522769764,-0.157499999999995));
#172=CARTESIAN_POINT('',(7.843825195667424,1.801967501246344,-0.157499999999995));
#173=CARTESIAN_POINT('',(7.843825195667424,1.801967501246344,-0.271529411212577));
#174=CARTESIAN_POINT('',(7.843823366913846,1.815711968961215,-0.271529411212577));
#175=CARTESIAN_POINT('',(7.862016749435895,1.842535240571743,-0.271529411212577));
#176=CARTESIAN_POINT('',(7.909868151687147,1.833024274344277,-0.271529411212577));
#177=CARTESIAN_POINT('',(7.919393235048941,1.785175336563041,-0.271529411212577));
#178=CARTESIAN_POINT('',(7.883507893572236,1.761174609888293,-0.271529411212577));
#179=CARTESIAN_POINT('',(7.851412858027405,1.774552296092252,-0.271529411212577));
#180=CARTESIAN_POINT('',(7.843826414836478,1.792804522769764,-0.271529411212577));
#181=CARTESIAN_POINT('',(7.843825195667424,1.801967501246344,-0.271529411212577));
#182=CARTESIAN_POINT('',(7.843825195667424,1.801967501246344,-0.385558822425273));
#183=CARTESIAN_POINT('',(7.843823366913846,1.815711968961215,-0.385558822425273));
#184=CARTESIAN_POINT('',(7.862016749435895,1.842535240571743,-0.385558822425273));
#185=CARTESIAN_POINT('',(7.909868151687147,1.833024274344277,-0.385558822425273));
#186=CARTESIAN_POINT('',(7.919393235048941,1.785175336563041,-0.385558822425273));
#187=CARTESIAN_POINT('',(7.883507893572236,1.761174609888293,-0.385558822425273));
#188=CARTESIAN_POINT('',(7.851412858027405,1.774552296092252,-0.385558822425273));
#189=CARTESIAN_POINT('',(7.843826414836478,1.792804522769764,-0.385558822425273));
#190=CARTESIAN_POINT('',(7.843825195667424,1.801967501246344,-0.385558822425273));
#191=CARTESIAN_POINT('',(7.843825195667424,1.801967501246344,-0.499588233637855));
#192=CARTESIAN_POINT('',(7.843823366913846,1.815711968961215,-0.499588233637855));
#193=CARTESIAN_POINT('',(7.862016749435895,1.842535240571743,-0.499588233637855));
#194=CARTESIAN_POINT('',(7.909868151687147,1.833024274344277,-0.499588233637855));
#195=CARTESIAN_POINT('',(7.919393235048941,1.785175336563041,-0.499588233637855));
#196=CARTESIAN_POINT('',(7.883507893572236,1.761174609888293,-0.499588233637855));
#197=CARTESIAN_POINT('',(7.851412858027405,1.774552296092252,-0.499588233637855));
#198=CARTESIAN_POINT('',(7.843826414836478,1.792804522769764,-0.499588233637855));
#199=CARTESIAN_POINT('',(7.843825195667424,1.801967501246344,-0.499588233637855));
#200=B_SPLINE_SURFACE_WITH_KNOTS('',3,3,((#164,#173,#182,#191),(#165,#174,#183,#192),(#166,#175,#184,#193),(#167,#176,#185,#194),(#168,#177,#186,#195),(#169,#178,#187,#196),(#170,#179,#188,#197),(#171,#180,#189,#198),(#172,#181,#190,#199)),.UNSPECIFIED.,.T.,.F.,.U.,(4,1,1,1,1,1,4),(4,4),(0.0,1.178097245096172,2.356194490192345,3.534291735288517,4.712388980384691,5.497787143782138,6.283185307179585),(0.0,0.342088233637860),.UNSPECIFIED.);
#201=CARTESIAN_POINT('',(7.843825195667424,1.801967501246344,-0.499588233637855));
#202=VERTEX_POINT('',#201);
#203=CARTESIAN_POINT('',(7.878825195357616,1.801972158129102,-0.499588233637855));
#204=DIRECTION('',(0.0,0.0,1.0));
#205=DIRECTION('',(-0.999999991148344,-0.000133053793066,0.0));
#206=AXIS2_PLACEMENT_3D('',#203,#204,#205);
#207=CIRCLE('',#206,0.035000000000000);
#208=EDGE_CURVE('',#202,#202,#207,.T.);
#209=ORIENTED_EDGE('',*,*,#208,.T.);
#210=CARTESIAN_POINT('',(7.843825195667424,1.801967501246344,-0.157499999999995));
#211=VERTEX_POINT('',#210);
#212=CARTESIAN_POINT('',(7.843825195667424,1.801967501246344,-0.157499999999995));
#213=DIRECTION('',(0.0,0.0,-1.0));
#214=VECTOR('',#213,0.342088233637860);
#215=LINE('',#212,#214);
#216=EDGE_CURVE('',#211,#202,#215,.T.);
#217=ORIENTED_EDGE('',*,*,#216,.F.);
#218=CARTESIAN_POINT('',(7.878825195357616,1.801972158129102,-0.157499999999995));
#219=DIRECTION('',(0.0,0.0,-1.0));
#220=DIRECTION('',(-0.999999991148344,-0.000133053793066,0.0));
#221=AXIS2_PLACEMENT_3D('',#218,#219,#220);
#222=CIRCLE('',#221,0.035000000000000);
#223=EDGE_CURVE('',#211,#211,#222,.T.);
#224=ORIENTED_EDGE('',*,*,#223,.T.);
#225=ORIENTED_EDGE('',*,*,#216,.T.);
#226=EDGE_LOOP('',(#209,#217,#224,#225));
#227=FACE_OUTER_BOUND('',#226,.T.);
#228=ADVANCED_FACE('',(#227),#200,.T.);
#229=CARTESIAN_POINT('',(7.878825195357616,1.801972158129102,-0.499588233637855));
#230=DIRECTION('',(0.0,0.0,-1.0));
#231=DIRECTION('',(-1.0,0.0,0.0));
#232=AXIS2_PLACEMENT_3D('',#229,#230,#231);
#233=PLANE('',#232);
#234=ORIENTED_EDGE('',*,*,#208,.F.);
#235=EDGE_LOOP('',(#234));
#236=FACE_OUTER_BOUND('',#235,.T.);
#237=ADVANCED_FACE('',(#236),#233,.T.);
#238=CARTESIAN_POINT('',(7.878825195357616,1.801972158129102,-0.157499999999995));
#239=DIRECTION('',(0.0,0.0,-1.0));
#240=DIRECTION('',(-1.0,0.0,0.0));
#241=AXIS2_PLACEMENT_3D('',#238,#239,#240);
#242=PLANE('',#241);
#243=ORIENTED_EDGE('',*,*,#223,.F.);
#244=EDGE_LOOP('',(#243));
#245=FACE_OUTER_BOUND('',#244,.T.);
#246=ADVANCED_FACE('',(#245),#242,.F.);
#247=CLOSED_SHELL('',(#228,#237,#246));
#248=MANIFOLD_SOLID_BREP('',#247);
#249=COLOUR_RGB('Default',0.752941012382507,0.752941012382507,0.752941012382507);
#250=FILL_AREA_STYLE_COLOUR('Default',#249);
#251=FILL_AREA_STYLE('Default',(#250));
#252=SURFACE_STYLE_FILL_AREA(#251);
#253=SURFACE_SIDE_STYLE('Default',(#252));
#254=SURFACE_STYLE_USAGE(.BOTH.,#253);
#255=PRESENTATION_STYLE_ASSIGNMENT((#254));
#256=STYLED_ITEM('',(#255),#248);
#257=MECHANICAL_DESIGN_GEOMETRIC_PRESENTATION_REPRESENTATION('',(#256,#587),#42);
#258=ADVANCED_BREP_SHAPE_REPRESENTATION('ABSR',(#248),#132);
#259=SHAPE_REPRESENTATION_RELATIONSHIP('SRR','None',#258,#137);
#260=AXIS2_PLACEMENT_3D('',#261,#262,#263);
#261=CARTESIAN_POINT('',(0.0,0.0,0.0));
#262=DIRECTION('',(0.0,0.0,1.0));
#263=DIRECTION('',(1.0,0.0,0.0));
#264=NEXT_ASSEMBLY_USAGE_OCCURRENCE('F999:1','F999:1','F999:1',#57,#102,'F999:1');
#265=PRODUCT_DEFINITION_SHAPE('F999:1','F999:1',#264);
#266=ITEM_DEFINED_TRANSFORMATION('F999:1','F999:1',#133,#260);
#270=(REPRESENTATION_RELATIONSHIP('F999:1','F999:1',#137,#92)REPRESENTATION_RELATIONSHIP_WITH_TRANSFORMATION(#266)SHAPE_REPRESENTATION_RELATIONSHIP());
#271=CONTEXT_DEPENDENT_SHAPE_REPRESENTATION(#270,#265);
#272=APPLICATION_CONTEXT('automotive design');
#273=APPLICATION_PROTOCOL_DEFINITION('International Standard','automotive_design',2001,#272);
#274=PRODUCT_CONTEXT('',#272,'mechanical');
#275=PRODUCT('F999A','F999A',$,(#274));
#276=PRODUCT_RELATED_PRODUCT_CATEGORY('part',$,(#275));
#277=PRODUCT_DEFINITION_FORMATION('',$,#275);
#278=PRODUCT_DEFINITION_CONTEXT('part definition',#272,'design');
#279=PRODUCT_DEFINITION('',$,#277,#278);
#285=(NAMED_UNIT(*)PLANE_ANGLE_UNIT()SI_UNIT($,.RADIAN.));
#286=DIMENSIONAL_EXPONENTS(0.0,0.0,0.0,0.0,0.0,0.0,0.0);
#287=PLANE_ANGLE_MEASURE_WITH_UNIT(PLANE_ANGLE_MEASURE(0.017453292500000),#285);
#291=(CONVERSION_BASED_UNIT('DEGREE',#287)NAMED_UNIT(#286)PLANE_ANGLE_UNIT());
#295=(NAMED_UNIT(*)SI_UNIT($,.STERADIAN.)SOLID_ANGLE_UNIT());
#299=(LENGTH_UNIT()NAMED_UNIT(*)SI_UNIT(.CENTI.,.METRE.));
#300=DIMENSIONAL_EXPONENTS(1.0,0.0,0.0,0.0,0.0,0.0,0.0);
#301=LENGTH_MEASURE_WITH_UNIT(LENGTH_MEASURE(2.540000000000000),#299);
#305=(CONVERSION_BASED_UNIT('INCH',#301)LENGTH_UNIT()NAMED_UNIT(#300));
#307=UNCERTAINTY_MEASURE_WITH_UNIT(LENGTH_MEASURE(0.000393700787402),#305,'DISTANCE_ACCURACY_VALUE','');
#309=(GEOMETRIC_REPRESENTATION_CONTEXT(3)GLOBAL_UNCERTAINTY_ASSIGNED_CONTEXT((#307))GLOBAL_UNIT_ASSIGNED_CONTEXT((#291,#295,#305))REPRESENTATION_CONTEXT('None','None'));
#310=AXIS2_PLACEMENT_3D('',#311,#312,#313);
#311=CARTESIAN_POINT('',(0.0,0.0,0.0));
#312=DIRECTION('',(0.0,0.0,1.0));
#313=DIRECTION('',(1.0,0.0,0.0));
#314=SHAPE_REPRESENTATION('',(#310),#309);
#315=PRODUCT_DEFINITION_SHAPE('','',#279);
#316=SHAPE_DEFINITION_REPRESENTATION(#315,#314);
#322=(NAMED_UNIT(*)PLANE_ANGLE_UNIT()SI_UNIT($,.RADIAN.));
#323=DIMENSIONAL_EXPONENTS(0.0,0.0,0.0,0.0,0.0,0.0,0.0);
#324=PLANE_ANGLE_MEASURE_WITH_UNIT(PLANE_ANGLE_MEASURE(0.017453292500000),#322);
#328=(CONVERSION_BASED_UNIT('DEGREE',#324)NAMED_UNIT(#323)PLANE_ANGLE_UNIT());
#332=(NAMED_UNIT(*)SI_UNIT($,.STERADIAN.)SOLID_ANGLE_UNIT());
#336=(LENGTH_UNIT()NAMED_UNIT(*)SI_UNIT(.MILLI.,.METRE.));
#338=UNCERTAINTY_MEASURE_WITH_UNIT(LENGTH_MEASURE(0.000001000000000),#336,'DISTANCE_ACCURACY_VALUE','');
#340=(GEOMETRIC_REPRESENTATION_CONTEXT(3)GLOBAL_UNCERTAINTY_ASSIGNED_CONTEXT((#338))GLOBAL_UNIT_ASSIGNED_CONTEXT((#328,#332,#336))REPRESENTATION_CONTEXT('','3D'));
#341=CARTESIAN_POINT('',(7.878825195357615,1.743972158129100,-1.473777E-019));
#342=DIRECTION('',(1.926886E-013,-1.0,-1.473777E-017));
#343=DIRECTION('',(0.0,0.0,-1.0));
#344=AXIS2_PLACEMENT_3D('',#341,#342,#343);
#345=CYLINDRICAL_SURFACE('',#344,0.151500000000000);
#346=CARTESIAN_POINT('',(7.878825195357615,1.743972158127608,0.151500000000000));
#347=VERTEX_POINT('',#346);
#348=CARTESIAN_POINT('',(7.878825195357615,1.743972158127608,-1.473777E-019));
#349=DIRECTION('',(0.0,1.0,0.0));
#350=DIRECTION('',(0.0,0.0,-1.0));
#351=AXIS2_PLACEMENT_3D('',#348,#349,#350);
#352=CIRCLE('',#351,0.151500000000000);
#353=EDGE_CURVE('',#347,#347,#352,.T.);
#354=ORIENTED_EDGE('',*,*,#353,.F.);
#355=EDGE_LOOP('',(#354));
#356=FACE_OUTER_BOUND('',#355,.T.);
#357=CARTESIAN_POINT('',(7.878825195357616,1.731972158129100,0.151500000000000));
#358=VERTEX_POINT('',#357);
#359=CARTESIAN_POINT('',(7.878825195357616,1.731972158129100,-3.242310E-019));
#360=DIRECTION('',(-1.926886E-013,1.0,0.0));
#361=DIRECTION('',(0.0,0.0,-1.0));
#362=AXIS2_PLACEMENT_3D('',#359,#360,#361);
#363=CIRCLE('',#362,0.151500000000000);
#364=EDGE_CURVE('',#358,#358,#363,.T.);
#365=ORIENTED_EDGE('',*,*,#364,.T.);
#366=EDGE_LOOP('',(#365));
#367=FACE_BOUND('',#366,.T.);
#368=ADVANCED_FACE('',(#356,#367),#345,.T.);
#369=CARTESIAN_POINT('',(7.878825195357953,1.801972158127582,-1.0));
#370=DIRECTION('',(0.0,0.0,-1.0));
#371=DIRECTION('',(1.0,0.0,0.0));
#372=AXIS2_PLACEMENT_3D('',#369,#370,#371);
#373=CYLINDRICAL_SURFACE('',#372,0.042500000000000);
#374=CARTESIAN_POINT('',(7.921325195357952,1.801972158127582,-0.182619823677495));
#375=VERTEX_POINT('',#374);
#376=CARTESIAN_POINT('',(7.836325195357953,1.801972158127582,-0.182619823677495));
#377=VERTEX_POINT('',#376);
#378=CARTESIAN_POINT('',(7.921325195357953,1.801972158127582,-0.182619823677495));
#379=CARTESIAN_POINT('',(7.921325195357953,1.807328896301271,-0.182619823677495));
#380=CARTESIAN_POINT('',(7.920250826205167,1.813029409682389,-0.182880011400421));
#381=CARTESIAN_POINT('',(7.915907894822570,1.823494686677145,-0.183809833116232));
#382=CARTESIAN_POINT('',(7.912640296238568,1.828261133647823,-0.184464964032630));
#383=CARTESIAN_POINT('',(7.905114522596906,1.835786907289481,-0.185686974663554));
#384=CARTESIAN_POINT('',(7.900347927720671,1.839054780771064,-0.186334681354689));
#385=CARTESIAN_POINT('',(7.889882131419215,1.843397912141519,-0.187247391562871));
#386=CARTESIAN_POINT('',(7.884181432858325,1.844472158127583,-0.187499999999998));
#387=CARTESIAN_POINT('',(7.873468957857578,1.844472158127583,-0.187499999999998));
#388=CARTESIAN_POINT('',(7.867768259296688,1.843397912141519,-0.187247391562871));
#389=CARTESIAN_POINT('',(7.857302462995231,1.839054780771064,-0.186334681354689));
#390=CARTESIAN_POINT('',(7.852535868118997,1.835786907289481,-0.185686974663554));
#391=CARTESIAN_POINT('',(7.845010094477339,1.828261133647823,-0.184464964032630));
#392=CARTESIAN_POINT('',(7.841742495893336,1.823494686677145,-0.183809833116232));
#393=CARTESIAN_POINT('',(7.837399564510738,1.813029409682389,-0.182880011400421));
#394=CARTESIAN_POINT('',(7.836325195357953,1.807328896301271,-0.182619823677495));
#395=CARTESIAN_POINT('',(7.836325195357953,1.801972158127582,-0.182619823677495));
#396=B_SPLINE_CURVE_WITH_KNOTS('',3,(#378,#379,#380,#381,#382,#383,#384,#385,#386,#387,#388,#389,#390,#391,#392,#393,#394,#395),.UNSPECIFIED.,.F.,.U.,(4,2,2,2,2,2,2,2,4),(0.128555708088752,0.144625922609820,0.160696137130889,0.176764849632008,0.192833562133127,0.208902274634246,0.224970987135365,0.241041201656434,0.257111416177503),.UNSPECIFIED.);
#397=EDGE_CURVE('',#375,#377,#396,.T.);
#398=ORIENTED_EDGE('',*,*,#397,.F.);
#399=CARTESIAN_POINT('',(7.836325195357953,1.801972158127582,-0.182619823677495));
#400=CARTESIAN_POINT('',(7.836325195357953,1.796615419953892,-0.182619823677495));
#401=CARTESIAN_POINT('',(7.837399564510738,1.790914906572774,-0.182880011400421));
#402=CARTESIAN_POINT('',(7.841742495893336,1.780449629578019,-0.183809833116232));
#403=CARTESIAN_POINT('',(7.845010094477339,1.775683182607341,-0.184464964032630));
#404=CARTESIAN_POINT('',(7.852535868118997,1.768157408965682,-0.185686974663554));
#405=CARTESIAN_POINT('',(7.857302462995231,1.764889535484099,-0.186334681354689));
#406=CARTESIAN_POINT('',(7.867768259296688,1.760546404113645,-0.187247391562871));
#407=CARTESIAN_POINT('',(7.873468957857578,1.759472158127582,-0.187499999999998));
#408=CARTESIAN_POINT('',(7.884181432858325,1.759472158127582,-0.187499999999998));
#409=CARTESIAN_POINT('',(7.889882131419215,1.760546404113645,-0.187247391562871));
#410=CARTESIAN_POINT('',(7.900347927720671,1.764889535484099,-0.186334681354689));
#411=CARTESIAN_POINT('',(7.905114522596906,1.768157408965682,-0.185686974663554));
#412=CARTESIAN_POINT('',(7.912640296238568,1.775683182607341,-0.184464964032630));
#413=CARTESIAN_POINT('',(7.915907894822570,1.780449629578019,-0.183809833116232));
#414=CARTESIAN_POINT('',(7.920250826205167,1.790914906572774,-0.182880011400421));
#415=CARTESIAN_POINT('',(7.921325195357953,1.796615419953892,-0.182619823677495));
#416=CARTESIAN_POINT('',(7.921325195357953,1.801972158127582,-0.182619823677495));
#417=B_SPLINE_CURVE_WITH_KNOTS('',3,(#399,#400,#401,#402,#403,#404,#405,#406,#407,#408,#409,#410,#411,#412,#413,#414,#415,#416),.UNSPECIFIED.,.F.,.U.,(4,2,2,2,2,2,2,2,4),(0.0,0.016070214521069,0.032140429042138,0.048209141543257,0.064277854044376,0.080346566545495,0.096415279046614,0.112485493567683,0.128555708088752),.UNSPECIFIED.);
#418=EDGE_CURVE('',#377,#375,#417,.T.);
#419=ORIENTED_EDGE('',*,*,#418,.F.);
#420=EDGE_LOOP('',(#398,#419));
#421=FACE_OUTER_BOUND('',#420,.T.);
#422=CARTESIAN_POINT('',(7.836325195357953,1.801972158127582,0.0));
#423=VERTEX_POINT('',#422);
#424=CARTESIAN_POINT('',(7.878825195357953,1.801972158127582,0.0));
#425=DIRECTION('',(0.0,0.0,1.0));
#426=DIRECTION('',(1.0,0.0,0.0));
#427=AXIS2_PLACEMENT_3D('',#424,#425,#426);
#428=CIRCLE('',#427,0.042500000000000);
#429=EDGE_CURVE('',#423,#423,#428,.T.);
#430=ORIENTED_EDGE('',*,*,#429,.T.);
#431=EDGE_LOOP('',(#430));
#432=FACE_BOUND('',#431,.T.);
#433=ADVANCED_FACE('',(#421,#432),#373,.F.);
#434=CARTESIAN_POINT('',(7.878825195357953,1.723972158127581,0.0));
#435=DIRECTION('',(0.0,1.0,0.0));
#436=DIRECTION('',(-1.0,0.0,0.0));
#437=AXIS2_PLACEMENT_3D('',#434,#435,#436);
#438=CYLINDRICAL_SURFACE('',#437,0.154999999999999);
#439=CARTESIAN_POINT('',(8.033825195357952,1.703972158127582,-1.898140E-017));
#440=VERTEX_POINT('',#439);
#441=CARTESIAN_POINT('',(7.878825195357953,1.703972158127582,0.0));
#442=DIRECTION('',(0.0,1.0,0.0));
#443=DIRECTION('',(-1.0,0.0,0.0));
#444=AXIS2_PLACEMENT_3D('',#441,#442,#443);
#445=CIRCLE('',#444,0.154999999999999);
#446=EDGE_CURVE('',#440,#440,#445,.T.);
#447=ORIENTED_EDGE('',*,*,#446,.F.);
#448=EDGE_LOOP('',(#447));
#449=FACE_OUTER_BOUND('',#448,.T.);
#450=CARTESIAN_POINT('',(8.033825195357952,1.743972158127581,-1.898140E-017));
#451=VERTEX_POINT('',#450);
#452=CARTESIAN_POINT('',(7.878825195357953,1.743972158127581,0.0));
#453=DIRECTION('',(0.0,1.0,0.0));
#454=DIRECTION('',(-1.0,0.0,0.0));
#455=AXIS2_PLACEMENT_3D('',#452,#453,#454);
#456=CIRCLE('',#455,0.154999999999999);
#457=EDGE_CURVE('',#451,#451,#456,.T.);
#458=ORIENTED_EDGE('',*,*,#457,.T.);
#459=EDGE_LOOP('',(#458));
#460=FACE_BOUND('',#459,.T.);
#461=ADVANCED_FACE('',(#449,#460),#438,.F.);
#462=CARTESIAN_POINT('',(7.878825195357953,1.788972158127582,0.0));
#463=DIRECTION('',(0.0,1.0,0.0));
#464=DIRECTION('',(-1.0,0.0,0.0));
#465=AXIS2_PLACEMENT_3D('',#462,#463,#464);
#466=CYLINDRICAL_SURFACE('',#465,0.187499999999998);
#467=CARTESIAN_POINT('',(8.066325195357948,1.703972158127582,-2.296137E-017));
#468=VERTEX_POINT('',#467);
#469=CARTESIAN_POINT('',(7.878825195357953,1.703972158127582,0.0));
#470=DIRECTION('',(0.0,1.0,0.0));
#471=DIRECTION('',(-1.0,0.0,0.0));
#472=AXIS2_PLACEMENT_3D('',#469,#470,#471);
#473=CIRCLE('',#472,0.187499999999998);
#474=EDGE_CURVE('',#468,#468,#473,.T.);
#475=ORIENTED_EDGE('',*,*,#474,.T.);
#476=EDGE_LOOP('',(#475));
#477=FACE_OUTER_BOUND('',#476,.T.);
#478=CARTESIAN_POINT('',(8.066325195357948,1.873972158127581,-2.296137E-017));
#479=VERTEX_POINT('',#478);
#480=CARTESIAN_POINT('',(7.878825195357953,1.873972158127581,0.0));
#481=DIRECTION('',(0.0,1.0,0.0));
#482=DIRECTION('',(-1.0,0.0,0.0));
#483=AXIS2_PLACEMENT_3D('',#480,#481,#482);
#484=CIRCLE('',#483,0.187499999999998);
#485=EDGE_CURVE('',#479,#479,#484,.T.);
#486=ORIENTED_EDGE('',*,*,#485,.F.);
#487=EDGE_LOOP('',(#486));
#488=FACE_BOUND('',#487,.T.);
#489=ORIENTED_EDGE('',*,*,#418,.T.);
#490=ORIENTED_EDGE('',*,*,#397,.T.);
#491=EDGE_LOOP('',(#489,#490));
#492=FACE_BOUND('',#491,.T.);
#493=ADVANCED_FACE('',(#477,#488,#492),#466,.T.);
#494=CARTESIAN_POINT('',(7.878825195357953,1.877957599469038,0.0));
#495=DIRECTION('',(0.0,1.0,0.0));
#496=DIRECTION('',(-1.0,0.0,0.0));
#497=AXIS2_PLACEMENT_3D('',#494,#495,#496);
#498=CYLINDRICAL_SURFACE('',#497,0.044999999999998);
#499=CARTESIAN_POINT('',(7.923825195357948,1.873972158127581,-5.510729E-018));
#500=VERTEX_POINT('',#499);
#501=CARTESIAN_POINT('',(7.878825195357953,1.873972158127581,0.0));
#502=DIRECTION('',(0.0,1.0,0.0));
#503=DIRECTION('',(-1.0,0.0,0.0));
#504=AXIS2_PLACEMENT_3D('',#501,#502,#503);
#505=CIRCLE('',#504,0.044999999999997);
#506=EDGE_CURVE('',#500,#500,#505,.T.);
#507=ORIENTED_EDGE('',*,*,#506,.T.);
#508=EDGE_LOOP('',(#507));
#509=FACE_OUTER_BOUND('',#508,.T.);
#510=CARTESIAN_POINT('',(7.923825195357948,1.881943040810495,-5.510729E-018));
#511=VERTEX_POINT('',#510);
#512=CARTESIAN_POINT('',(7.878825195357953,1.881943040810495,0.0));
#513=DIRECTION('',(0.0,1.0,0.0));
#514=DIRECTION('',(-1.0,0.0,0.0));
#515=AXIS2_PLACEMENT_3D('',#512,#513,#514);
#516=CIRCLE('',#515,0.044999999999999);
#517=EDGE_CURVE('',#511,#511,#516,.T.);
#518=ORIENTED_EDGE('',*,*,#517,.F.);
#519=EDGE_LOOP('',(#518));
#520=FACE_BOUND('',#519,.T.);
#521=ADVANCED_FACE('',(#509,#520),#498,.T.);
#522=CARTESIAN_POINT('',(7.878825195357953,1.383972158127582,0.0));
#523=DIRECTION('',(0.0,0.0,1.0));
#524=DIRECTION('',(1.0,0.0,0.0));
#525=AXIS2_PLACEMENT_3D('',#522,#523,#524);
#526=SPHERICAL_SURFACE('',#525,0.500000000000001);
#527=ORIENTED_EDGE('',*,*,#517,.T.);
#528=EDGE_LOOP('',(#527));
#529=FACE_OUTER_BOUND('',#528,.T.);
#530=ADVANCED_FACE('',(#529),#526,.T.);
#531=CARTESIAN_POINT('',(7.762575195357957,1.873972158127581,0.0));
#532=DIRECTION('',(0.0,1.0,0.0));
#533=DIRECTION('',(0.0,0.0,1.0));
#534=AXIS2_PLACEMENT_3D('',#531,#532,#533);
#535=PLANE('',#534);
#536=ORIENTED_EDGE('',*,*,#485,.T.);
#537=EDGE_LOOP('',(#536));
#538=FACE_OUTER_BOUND('',#537,.T.);
#539=ORIENTED_EDGE('',*,*,#506,.F.);
#540=EDGE_LOOP('',(#539));
#541=FACE_BOUND('',#540,.T.);
#542=ADVANCED_FACE('',(#538,#541),#535,.T.);
#543=CARTESIAN_POINT('',(7.707575195357952,1.703972158127582,0.0));
#544=DIRECTION('',(0.0,-1.0,0.0));
#545=DIRECTION('',(0.0,0.0,-1.0));
#546=AXIS2_PLACEMENT_3D('',#543,#544,#545);
#547=PLANE('',#546);
#548=ORIENTED_EDGE('',*,*,#474,.F.);
#549=EDGE_LOOP('',(#548));
#550=FACE_OUTER_BOUND('',#549,.T.);
#551=ORIENTED_EDGE('',*,*,#446,.T.);
#552=EDGE_LOOP('',(#551));
#553=FACE_BOUND('',#552,.T.);
#554=ADVANCED_FACE('',(#550,#553),#547,.T.);
#555=CARTESIAN_POINT('',(7.737575195357951,1.743972158127581,0.0));
#556=DIRECTION('',(0.0,-1.0,0.0));
#557=DIRECTION('',(0.0,0.0,-1.0));
#558=AXIS2_PLACEMENT_3D('',#555,#556,#557);
#559=PLANE('',#558);
#560=ORIENTED_EDGE('',*,*,#457,.F.);
#561=EDGE_LOOP('',(#560));
#562=FACE_OUTER_BOUND('',#561,.T.);
#563=ORIENTED_EDGE('',*,*,#353,.T.);
#564=EDGE_LOOP('',(#563));
#565=FACE_BOUND('',#564,.T.);
#566=ADVANCED_FACE('',(#562,#565),#559,.T.);
#567=CARTESIAN_POINT('',(7.878825195357953,1.801972158127582,0.0));
#568=DIRECTION('',(0.0,0.0,1.0));
#569=DIRECTION('',(1.0,0.0,0.0));
#570=AXIS2_PLACEMENT_3D('',#567,#568,#569);
#571=PLANE('',#570);
#572=ORIENTED_EDGE('',*,*,#429,.F.);
#573=EDGE_LOOP('',(#572));
#574=FACE_OUTER_BOUND('',#573,.T.);
#575=ADVANCED_FACE('',(#574),#571,.F.);
#576=CARTESIAN_POINT('',(7.878825195357616,1.731972158129100,-3.242310E-019));
#577=DIRECTION('',(-1.926886E-013,1.0,1.473777E-017));
#578=DIRECTION('',(0.0,0.0,1.0));
#579=AXIS2_PLACEMENT_3D('',#576,#577,#578);
#580=PLANE('',#579);
#581=ORIENTED_EDGE('',*,*,#364,.F.);
#582=EDGE_LOOP('',(#581));
#583=FACE_OUTER_BOUND('',#582,.T.);
#584=ADVANCED_FACE('',(#583),#580,.F.);
#585=CLOSED_SHELL('',(#368,#433,#461,#493,#521,#530,#542,#554,#566,#575,#584));
#586=MANIFOLD_SOLID_BREP('',#585);
#587=STYLED_ITEM('',(#255),#586);
#588=ADVANCED_BREP_SHAPE_REPRESENTATION('ABSR',(#586),#309);
#589=SHAPE_REPRESENTATION_RELATIONSHIP('SRR','None',#588,#314);
#590=AXIS2_PLACEMENT_3D('',#591,#592,#593);
#591=CARTESIAN_POINT('',(0.0,0.0,0.0));
#592=DIRECTION('',(0.0,0.0,1.0));
#593=DIRECTION('',(1.0,0.0,0.0));
#594=NEXT_ASSEMBLY_USAGE_OCCURRENCE('F999A:1','F999A:1','F999A:1',#57,#279,'F999A:1');
#595=PRODUCT_DEFINITION_SHAPE('F999A:1','F999A:1',#594);
#596=ITEM_DEFINED_TRANSFORMATION('F999A:1','F999A:1',#310,#590);
#600=(REPRESENTATION_RELATIONSHIP('F999A:1','F999A:1',#314,#92)REPRESENTATION_RELATIONSHIP_WITH_TRANSFORMATION(#596)SHAPE_REPRESENTATION_RELATIONSHIP());
#601=CONTEXT_DEPENDENT_SHAPE_REPRESENTATION(#600,#595);
#602=AXIS2_PLACEMENT_3D('',#603,#604,#605);
#603=CARTESIAN_POINT('',(16.720689076623099,10.897250878775633,0.375159643054440));
#604=DIRECTION('',(0.0,1.0,0.0));
#605=DIRECTION('',(-0.999999991148344,0.0,-0.000133053793066));
#606=NEXT_ASSEMBLY_USAGE_OCCURRENCE('~~PART1 (~1):1','~~PART1 (~1):1','~~PART1 (~1):1',#12,#57,'~~PART1 (~1):1');
#607=PRODUCT_DEFINITION_SHAPE('~~PART1 (~1):1','~~PART1 (~1):1',#606);
#608=ITEM_DEFINED_TRANSFORMATION('~~PART1 (~1):1','~~PART1 (~1):1',#88,#602);
#612=(REPRESENTATION_RELATIONSHIP('~~PART1 (~1):1','~~PART1 (~1):1',#92,#47)REPRESENTATION_RELATIONSHIP_WITH_TRANSFORMATION(#608)SHAPE_REPRESENTATION_RELATIONSHIP());
#613=CONTEXT_DEPENDENT_SHAPE_REPRESENTATION(#612,#607);
ENDSEC;
END-ISO-10303-21;
