ISO-10303-21;
HEADER;
/****************************************************************
 * Generated by software with PDE/Lib inside                    *
 * PDElib Version v51a, created Thu 12/14/2006                  *
 * International Technegroup Inc. (www.iti-oh.com)              *
 ****************************************************************/
FILE_DESCRIPTION((''),'2;1');
FILE_NAME('LSM200.stp','2010-12-10T10:08:33',(''),(''),'Mechanical Desktop 2008','Mechanical Desktop 2008',', , ');
FILE_SCHEMA(('CONFIG_CONTROL_DESIGN'));
ENDSEC;
DATA;
#8=(NAMED_UNIT(*)PLANE_ANGLE_UNIT()SI_UNIT($,.RADIAN.));
#9=DIMENSIONAL_EXPONENTS(0.0,0.0,0.0,0.0,0.0,0.0,0.0);
#10=PLANE_ANGLE_MEASURE_WITH_UNIT(PLANE_ANGLE_MEASURE(0.017453292500000),#8);
#14=(CONVERSION_BASED_UNIT('DEGREE',#10)NAMED_UNIT(#9)PLANE_ANGLE_UNIT());
#18=(NAMED_UNIT(*)SI_UNIT($,.STERADIAN.)SOLID_ANGLE_UNIT());
#20=DIMENSIONAL_EXPONENTS(1.0,0.0,0.0,0.0,0.0,0.0,0.0);
#24=(LENGTH_UNIT()NAMED_UNIT(*)SI_UNIT(.MILLI.,.METRE.));
#25=LENGTH_MEASURE_WITH_UNIT(LENGTH_MEASURE(25.399999999999999),#24);
#27=(CONVERSION_BASED_UNIT('INCH',#25)LENGTH_UNIT()NAMED_UNIT(#20));
#28=UNCERTAINTY_MEASURE_WITH_UNIT(LENGTH_MEASURE(0.000001000000000),#27,'DISTANCE_ACCURACY_VALUE','');
#33=(GEOMETRIC_REPRESENTATION_CONTEXT(3)GLOBAL_UNCERTAINTY_ASSIGNED_CONTEXT((#28))GLOBAL_UNIT_ASSIGNED_CONTEXT((#14,#18,#27))REPRESENTATION_CONTEXT('None','None'));
#34=APPLICATION_CONTEXT('CONFIGURATION CONTROLLED 3D DESIGNS OF MECHANICAL PARTS AND ASSEMBLIES');
#35=APPLICATION_PROTOCOL_DEFINITION('INTERNATIONAL STANDARD','config_control_design',1995,#34);
#36=MECHANICAL_CONTEXT('3D Mechanical Parts',#34,'mechanical');
#37=PRODUCT('FI1071','FI1071',' ',(#36));
#38=PRODUCT_RELATED_PRODUCT_CATEGORY('detail',$,(#37,#135));
#39=PRODUCT_CATEGORY('part',$);
#40=PRODUCT_CATEGORY_RELATIONSHIP('None','None',#39,#38);
#41=PERSON('1','Design','Joe',$,$,$);
#42=ORGANIZATION($,'None','None');
#43=PERSON_AND_ORGANIZATION(#41,#42);
#44=PERSON_AND_ORGANIZATION_ROLE('design_owner');
#45=CC_DESIGN_PERSON_AND_ORGANIZATION_ASSIGNMENT(#43,#44,(#37,#135));
#46=PRODUCT_DEFINITION_FORMATION_WITH_SPECIFIED_SOURCE('None','None',#37,.NOT_KNOWN.);
#47=PERSON('2','Creator','Joe',$,$,$);
#48=ORGANIZATION($,'None','None');
#49=PERSON_AND_ORGANIZATION(#47,#48);
#50=PERSON_AND_ORGANIZATION_ROLE('creator');
#51=CC_DESIGN_PERSON_AND_ORGANIZATION_ASSIGNMENT(#49,#50,(#46,#136));
#52=PERSON('3','Supplier','Joe',$,$,$);
#53=ORGANIZATION($,'None','None');
#54=PERSON_AND_ORGANIZATION(#52,#53);
#55=PERSON_AND_ORGANIZATION_ROLE('design_supplier');
#56=CC_DESIGN_PERSON_AND_ORGANIZATION_ASSIGNMENT(#54,#55,(#46,#136));
#57=APPROVAL_STATUS('approved');
#58=APPROVAL(#57,'None');
#59=PERSON('4','Approver','Joe',$,$,$);
#60=ORGANIZATION($,'None','None');
#61=PERSON_AND_ORGANIZATION(#59,#60);
#62=APPROVAL_ROLE('approver');
#63=APPROVAL_PERSON_ORGANIZATION(#61,#58,#62);
#64=COORDINATED_UNIVERSAL_TIME_OFFSET(8,$,.BEHIND.);
#65=CALENDAR_DATE(1996,29,5);
#66=LOCAL_TIME(12,0,0.0,#64);
#67=DATE_AND_TIME(#65,#66);
#68=APPROVAL_DATE_TIME(#67,#58);
#69=CC_DESIGN_APPROVAL(#58,(#46,#136));
#70=SECURITY_CLASSIFICATION_LEVEL('unclassified');
#71=SECURITY_CLASSIFICATION('security','None',#70);
#72=CC_DESIGN_SECURITY_CLASSIFICATION(#71,(#46,#136,#664));
#73=APPROVAL_STATUS('approved');
#74=APPROVAL(#73,'None');
#75=PERSON('5','Approver','Joe',$,$,$);
#76=ORGANIZATION($,'None','None');
#77=PERSON_AND_ORGANIZATION(#75,#76);
#78=APPROVAL_ROLE('approver');
#79=APPROVAL_PERSON_ORGANIZATION(#77,#74,#78);
#80=COORDINATED_UNIVERSAL_TIME_OFFSET(8,$,.BEHIND.);
#81=CALENDAR_DATE(1996,29,5);
#82=LOCAL_TIME(12,0,0.0,#80);
#83=DATE_AND_TIME(#81,#82);
#84=APPROVAL_DATE_TIME(#83,#74);
#85=CC_DESIGN_APPROVAL(#74,(#71));
#86=PERSON('6','Classifier','Joe',$,$,$);
#87=ORGANIZATION($,'None','None');
#88=PERSON_AND_ORGANIZATION(#86,#87);
#89=PERSON_AND_ORGANIZATION_ROLE('classification_officer');
#90=CC_DESIGN_PERSON_AND_ORGANIZATION_ASSIGNMENT(#88,#89,(#71));
#91=COORDINATED_UNIVERSAL_TIME_OFFSET(8,$,.BEHIND.);
#92=CALENDAR_DATE(1996,29,5);
#93=LOCAL_TIME(12,0,0.0,#91);
#94=DATE_AND_TIME(#92,#93);
#95=DATE_TIME_ROLE('classification_date');
#96=CC_DESIGN_DATE_AND_TIME_ASSIGNMENT(#94,#95,(#71));
#97=DESIGN_CONTEXT('Design Context',#34,'design');
#98=PRODUCT_DEFINITION('None','None',#46,#97);
#99=PERSON('7','Creator','Joe',$,$,$);
#100=ORGANIZATION($,'None','None');
#101=PERSON_AND_ORGANIZATION(#99,#100);
#102=PERSON_AND_ORGANIZATION_ROLE('creator');
#103=CC_DESIGN_PERSON_AND_ORGANIZATION_ASSIGNMENT(#101,#102,(#98,#137));
#104=COORDINATED_UNIVERSAL_TIME_OFFSET(8,$,.BEHIND.);
#105=CALENDAR_DATE(1996,29,5);
#106=LOCAL_TIME(12,0,0.0,#104);
#107=DATE_AND_TIME(#105,#106);
#108=DATE_TIME_ROLE('creation_date');
#109=CC_DESIGN_DATE_AND_TIME_ASSIGNMENT(#107,#108,(#98,#137));
#110=APPROVAL_STATUS('approved');
#111=APPROVAL(#110,'None');
#112=PERSON('8','Approver','Joe',$,$,$);
#113=ORGANIZATION($,'None','None');
#114=PERSON_AND_ORGANIZATION(#112,#113);
#115=APPROVAL_ROLE('approver');
#116=APPROVAL_PERSON_ORGANIZATION(#114,#111,#115);
#117=COORDINATED_UNIVERSAL_TIME_OFFSET(8,$,.BEHIND.);
#118=CALENDAR_DATE(1996,29,5);
#119=LOCAL_TIME(12,0,0.0,#117);
#120=DATE_AND_TIME(#118,#119);
#121=APPROVAL_DATE_TIME(#120,#111);
#122=CC_DESIGN_APPROVAL(#111,(#98,#137));
#123=CARTESIAN_POINT('NONE',(0.0,0.0,0.0));
#124=DIRECTION('NONE',(0.0,0.0,1.0));
#125=DIRECTION('NONE',(1.0,0.0,0.0));
#126=AXIS2_PLACEMENT_3D('NONE',#123,#124,#125);
#127=SHAPE_REPRESENTATION('SR1',(#126,#658),#33);
#128=PRODUCT_DEFINITION_SHAPE('PDS1','Test Part',#98);
#129=SHAPE_DEFINITION_REPRESENTATION(#128,#127);
#134=(GEOMETRIC_REPRESENTATION_CONTEXT(3)GLOBAL_UNCERTAINTY_ASSIGNED_CONTEXT((#28))GLOBAL_UNIT_ASSIGNED_CONTEXT((#14,#18,#27))REPRESENTATION_CONTEXT('Component','Component'));
#135=PRODUCT('OVERLOAD','OVERLOAD',' ',(#36));
#136=PRODUCT_DEFINITION_FORMATION_WITH_SPECIFIED_SOURCE('None','None',#135,.NOT_KNOWN.);
#137=PRODUCT_DEFINITION('None','None',#136,#97);
#138=SHAPE_REPRESENTATION('SR2',(#126),#134);
#139=PRODUCT_DEFINITION_SHAPE('PDS2','Test Part',#137);
#140=SHAPE_DEFINITION_REPRESENTATION(#139,#138);
#141=CARTESIAN_POINT('',(6.948591123498918,11.624802940747056,0.180000000000000));
#142=DIRECTION('',(0.0,1.0,0.0));
#143=DIRECTION('',(0.0,0.0,-1.0));
#144=AXIS2_PLACEMENT_3D('',#141,#142,#143);
#145=CYLINDRICAL_SURFACE('',#144,0.102000000000000);
#146=CARTESIAN_POINT('',(6.948591123498918,9.799227688942846,0.078000000000000));
#147=VERTEX_POINT('',#146);
#148=CARTESIAN_POINT('',(6.948591123498918,10.174227688942846,0.078000000000000));
#149=VERTEX_POINT('',#148);
#150=CARTESIAN_POINT('',(6.948591123498918,9.799227688942846,0.078000000000000));
#151=DIRECTION('',(0.0,1.0,0.0));
#152=VECTOR('',#151,0.375000000000000);
#153=LINE('',#150,#152);
#154=EDGE_CURVE('',#147,#149,#153,.T.);
#155=ORIENTED_EDGE('',*,*,#154,.F.);
#156=CARTESIAN_POINT('',(6.948591123498918,9.799227688942846,0.282000000000000));
#157=VERTEX_POINT('',#156);
#158=CARTESIAN_POINT('',(6.948591123498918,9.799227688942846,0.180000000000000));
#159=DIRECTION('',(0.0,1.0,0.0));
#160=DIRECTION('',(0.0,0.0,-1.0));
#161=AXIS2_PLACEMENT_3D('',#158,#159,#160);
#162=CIRCLE('',#161,0.102000000000000);
#163=EDGE_CURVE('',#157,#147,#162,.T.);
#164=ORIENTED_EDGE('',*,*,#163,.F.);
#165=CARTESIAN_POINT('',(6.948591123498918,10.174227688942846,0.282000000000000));
#166=VERTEX_POINT('',#165);
#167=CARTESIAN_POINT('',(6.948591123498918,9.799227688942846,0.282000000000000));
#168=DIRECTION('',(0.0,1.0,0.0));
#169=VECTOR('',#168,0.375000000000000);
#170=LINE('',#167,#169);
#171=EDGE_CURVE('',#157,#166,#170,.T.);
#172=ORIENTED_EDGE('',*,*,#171,.T.);
#173=CARTESIAN_POINT('',(6.948591123498918,10.174227688942846,0.180000000000000));
#174=DIRECTION('',(0.0,-1.0,0.0));
#175=DIRECTION('',(0.0,0.0,-1.0));
#176=AXIS2_PLACEMENT_3D('',#173,#174,#175);
#177=CIRCLE('',#176,0.102000000000000);
#178=EDGE_CURVE('',#149,#166,#177,.T.);
#179=ORIENTED_EDGE('',*,*,#178,.F.);
#180=EDGE_LOOP('',(#155,#164,#172,#179));
#181=FACE_OUTER_BOUND('',#180,.T.);
#182=ADVANCED_FACE('',(#181),#145,.F.);
#183=CARTESIAN_POINT('',(7.348591123498919,11.624802940747056,0.180000000000000));
#184=DIRECTION('',(0.0,1.0,0.0));
#185=DIRECTION('',(0.0,0.0,-1.0));
#186=AXIS2_PLACEMENT_3D('',#183,#184,#185);
#187=CYLINDRICAL_SURFACE('',#186,0.102000000000000);
#188=CARTESIAN_POINT('',(7.348591123498919,9.799227688942846,0.078000000000000));
#189=VERTEX_POINT('',#188);
#190=CARTESIAN_POINT('',(7.348591123498919,10.174227688942846,0.078000000000000));
#191=VERTEX_POINT('',#190);
#192=CARTESIAN_POINT('',(7.348591123498919,9.799227688942846,0.078000000000000));
#193=DIRECTION('',(0.0,1.0,0.0));
#194=VECTOR('',#193,0.375000000000000);
#195=LINE('',#192,#194);
#196=EDGE_CURVE('',#189,#191,#195,.T.);
#197=ORIENTED_EDGE('',*,*,#196,.F.);
#198=CARTESIAN_POINT('',(7.348591123498919,9.799227688942846,0.282000000000000));
#199=VERTEX_POINT('',#198);
#200=CARTESIAN_POINT('',(7.348591123498919,9.799227688942846,0.180000000000000));
#201=DIRECTION('',(0.0,1.0,0.0));
#202=DIRECTION('',(0.0,0.0,-1.0));
#203=AXIS2_PLACEMENT_3D('',#200,#201,#202);
#204=CIRCLE('',#203,0.102000000000000);
#205=EDGE_CURVE('',#199,#189,#204,.T.);
#206=ORIENTED_EDGE('',*,*,#205,.F.);
#207=CARTESIAN_POINT('',(7.348591123498919,10.174227688942846,0.282000000000000));
#208=VERTEX_POINT('',#207);
#209=CARTESIAN_POINT('',(7.348591123498919,9.799227688942846,0.282000000000000));
#210=DIRECTION('',(0.0,1.0,0.0));
#211=VECTOR('',#210,0.375000000000000);
#212=LINE('',#209,#211);
#213=EDGE_CURVE('',#199,#208,#212,.T.);
#214=ORIENTED_EDGE('',*,*,#213,.T.);
#215=CARTESIAN_POINT('',(7.348591123498919,10.174227688942846,0.180000000000000));
#216=DIRECTION('',(0.0,-1.0,0.0));
#217=DIRECTION('',(0.0,0.0,-1.0));
#218=AXIS2_PLACEMENT_3D('',#215,#216,#217);
#219=CIRCLE('',#218,0.102000000000000);
#220=EDGE_CURVE('',#191,#208,#219,.T.);
#221=ORIENTED_EDGE('',*,*,#220,.F.);
#222=EDGE_LOOP('',(#197,#206,#214,#221));
#223=FACE_OUTER_BOUND('',#222,.T.);
#224=ADVANCED_FACE('',(#223),#187,.F.);
#225=CARTESIAN_POINT('',(7.973591123498917,9.986727688942846,0.125000000000000));
#226=DIRECTION('',(0.0,0.0,1.0));
#227=DIRECTION('',(1.0,0.0,0.0));
#228=AXIS2_PLACEMENT_3D('',#225,#226,#227);
#229=CYLINDRICAL_SURFACE('',#228,0.054700000000000);
#230=CARTESIAN_POINT('',(8.028291123498917,9.986727688942846,0.0));
#231=VERTEX_POINT('',#230);
#232=CARTESIAN_POINT('',(8.028291123498917,9.986727688942846,0.151000000000000));
#233=VERTEX_POINT('',#232);
#234=CARTESIAN_POINT('',(8.028291123498917,9.986727688942846,0.0));
#235=DIRECTION('',(0.0,0.0,1.0));
#236=VECTOR('',#235,0.151000000000000);
#237=LINE('',#234,#236);
#238=EDGE_CURVE('',#231,#233,#237,.T.);
#239=ORIENTED_EDGE('',*,*,#238,.F.);
#240=CARTESIAN_POINT('',(7.918891123498916,9.986727688942846,0.0));
#241=VERTEX_POINT('',#240);
#242=CARTESIAN_POINT('',(7.973591123498917,9.986727688942846,0.0));
#243=DIRECTION('',(0.0,0.0,1.0));
#244=DIRECTION('',(1.0,0.0,0.0));
#245=AXIS2_PLACEMENT_3D('',#242,#243,#244);
#246=CIRCLE('',#245,0.054700000000000);
#247=EDGE_CURVE('',#241,#231,#246,.T.);
#248=ORIENTED_EDGE('',*,*,#247,.F.);
#249=CARTESIAN_POINT('',(7.918891123498916,9.986727688942846,0.151000000000000));
#250=VERTEX_POINT('',#249);
#251=CARTESIAN_POINT('',(7.918891123498916,9.986727688942846,0.0));
#252=DIRECTION('',(0.0,0.0,1.0));
#253=VECTOR('',#252,0.151000000000000);
#254=LINE('',#251,#253);
#255=EDGE_CURVE('',#241,#250,#254,.T.);
#256=ORIENTED_EDGE('',*,*,#255,.T.);
#257=CARTESIAN_POINT('',(7.973591123498917,9.986727688942846,0.151000000000000));
#258=DIRECTION('',(0.0,0.0,-1.0));
#259=DIRECTION('',(1.0,0.0,0.0));
#260=AXIS2_PLACEMENT_3D('',#257,#258,#259);
#261=CIRCLE('',#260,0.054700000000000);
#262=EDGE_CURVE('',#233,#250,#261,.T.);
#263=ORIENTED_EDGE('',*,*,#262,.F.);
#264=EDGE_LOOP('',(#239,#248,#256,#263));
#265=FACE_OUTER_BOUND('',#264,.T.);
#266=ADVANCED_FACE('',(#265),#229,.F.);
#267=CARTESIAN_POINT('',(7.973591123498917,9.986727688942846,0.125000000000000));
#268=DIRECTION('',(0.0,0.0,1.0));
#269=DIRECTION('',(1.0,0.0,0.0));
#270=AXIS2_PLACEMENT_3D('',#267,#268,#269);
#271=CYLINDRICAL_SURFACE('',#270,0.054700000000000);
#272=ORIENTED_EDGE('',*,*,#238,.T.);
#273=CARTESIAN_POINT('',(7.973591123498917,9.986727688942846,0.151000000000000));
#274=DIRECTION('',(0.0,0.0,-1.0));
#275=DIRECTION('',(1.0,0.0,0.0));
#276=AXIS2_PLACEMENT_3D('',#273,#274,#275);
#277=CIRCLE('',#276,0.054700000000000);
#278=EDGE_CURVE('',#250,#233,#277,.T.);
#279=ORIENTED_EDGE('',*,*,#278,.F.);
#280=ORIENTED_EDGE('',*,*,#255,.F.);
#281=CARTESIAN_POINT('',(7.973591123498917,9.986727688942846,0.0));
#282=DIRECTION('',(0.0,0.0,1.0));
#283=DIRECTION('',(1.0,0.0,0.0));
#284=AXIS2_PLACEMENT_3D('',#281,#282,#283);
#285=CIRCLE('',#284,0.054700000000000);
#286=EDGE_CURVE('',#231,#241,#285,.T.);
#287=ORIENTED_EDGE('',*,*,#286,.F.);
#288=EDGE_LOOP('',(#272,#279,#280,#287));
#289=FACE_OUTER_BOUND('',#288,.T.);
#290=ADVANCED_FACE('',(#289),#271,.F.);
#291=CARTESIAN_POINT('',(7.348591123498919,11.624802940747056,0.180000000000000));
#292=DIRECTION('',(0.0,1.0,0.0));
#293=DIRECTION('',(0.0,0.0,-1.0));
#294=AXIS2_PLACEMENT_3D('',#291,#292,#293);
#295=CYLINDRICAL_SURFACE('',#294,0.102000000000000);
#296=ORIENTED_EDGE('',*,*,#196,.T.);
#297=CARTESIAN_POINT('',(7.348591123498919,10.174227688942846,0.180000000000000));
#298=DIRECTION('',(0.0,-1.0,0.0));
#299=DIRECTION('',(0.0,0.0,-1.0));
#300=AXIS2_PLACEMENT_3D('',#297,#298,#299);
#301=CIRCLE('',#300,0.102000000000000);
#302=EDGE_CURVE('',#208,#191,#301,.T.);
#303=ORIENTED_EDGE('',*,*,#302,.F.);
#304=ORIENTED_EDGE('',*,*,#213,.F.);
#305=CARTESIAN_POINT('',(7.348591123498919,9.799227688942846,0.180000000000000));
#306=DIRECTION('',(0.0,1.0,0.0));
#307=DIRECTION('',(0.0,0.0,-1.0));
#308=AXIS2_PLACEMENT_3D('',#305,#306,#307);
#309=CIRCLE('',#308,0.102000000000000);
#310=EDGE_CURVE('',#189,#199,#309,.T.);
#311=ORIENTED_EDGE('',*,*,#310,.F.);
#312=EDGE_LOOP('',(#296,#303,#304,#311));
#313=FACE_OUTER_BOUND('',#312,.T.);
#314=ADVANCED_FACE('',(#313),#295,.F.);
#315=CARTESIAN_POINT('',(6.948591123498918,11.624802940747056,0.180000000000000));
#316=DIRECTION('',(0.0,1.0,0.0));
#317=DIRECTION('',(0.0,0.0,-1.0));
#318=AXIS2_PLACEMENT_3D('',#315,#316,#317);
#319=CYLINDRICAL_SURFACE('',#318,0.102000000000000);
#320=ORIENTED_EDGE('',*,*,#154,.T.);
#321=CARTESIAN_POINT('',(6.948591123498918,10.174227688942846,0.180000000000000));
#322=DIRECTION('',(0.0,-1.0,0.0));
#323=DIRECTION('',(0.0,0.0,-1.0));
#324=AXIS2_PLACEMENT_3D('',#321,#322,#323);
#325=CIRCLE('',#324,0.102000000000000);
#326=EDGE_CURVE('',#166,#149,#325,.T.);
#327=ORIENTED_EDGE('',*,*,#326,.F.);
#328=ORIENTED_EDGE('',*,*,#171,.F.);
#329=CARTESIAN_POINT('',(6.948591123498918,9.799227688942846,0.180000000000000));
#330=DIRECTION('',(0.0,1.0,0.0));
#331=DIRECTION('',(0.0,0.0,-1.0));
#332=AXIS2_PLACEMENT_3D('',#329,#330,#331);
#333=CIRCLE('',#332,0.102000000000000);
#334=EDGE_CURVE('',#147,#157,#333,.T.);
#335=ORIENTED_EDGE('',*,*,#334,.F.);
#336=EDGE_LOOP('',(#320,#327,#328,#335));
#337=FACE_OUTER_BOUND('',#336,.T.);
#338=ADVANCED_FACE('',(#337),#319,.F.);
#339=CARTESIAN_POINT('',(8.223591123498917,9.799227688942846,0.307000000000000));
#340=DIRECTION('',(0.0,0.0,1.0));
#341=DIRECTION('',(1.0,0.0,0.0));
#342=AXIS2_PLACEMENT_3D('',#339,#340,#341);
#343=PLANE('',#342);
#344=CARTESIAN_POINT('',(8.223591123498917,10.174227688942846,0.307000000000000));
#345=VERTEX_POINT('',#344);
#346=CARTESIAN_POINT('',(7.723591123498917,10.174227688942846,0.307000000000000));
#347=VERTEX_POINT('',#346);
#348=CARTESIAN_POINT('',(8.223591123498917,10.174227688942846,0.307000000000000));
#349=DIRECTION('',(-1.0,0.0,0.0));
#350=VECTOR('',#349,0.500000000000000);
#351=LINE('',#348,#350);
#352=EDGE_CURVE('',#345,#347,#351,.T.);
#353=ORIENTED_EDGE('',*,*,#352,.F.);
#354=CARTESIAN_POINT('',(8.223591123498917,9.799227688942846,0.307000000000000));
#355=VERTEX_POINT('',#354);
#356=CARTESIAN_POINT('',(8.223591123498917,9.799227688942846,0.307000000000000));
#357=DIRECTION('',(0.0,1.0,0.0));
#358=VECTOR('',#357,0.375000000000000);
#359=LINE('',#356,#358);
#360=EDGE_CURVE('',#355,#345,#359,.T.);
#361=ORIENTED_EDGE('',*,*,#360,.F.);
#362=CARTESIAN_POINT('',(7.723591123498917,9.799227688942846,0.307000000000000));
#363=VERTEX_POINT('',#362);
#364=CARTESIAN_POINT('',(7.723591123498917,9.799227688942846,0.307000000000000));
#365=DIRECTION('',(1.0,0.0,0.0));
#366=VECTOR('',#365,0.500000000000000);
#367=LINE('',#364,#366);
#368=EDGE_CURVE('',#363,#355,#367,.T.);
#369=ORIENTED_EDGE('',*,*,#368,.F.);
#370=CARTESIAN_POINT('',(7.723591123498917,9.799227688942846,0.307000000000000));
#371=DIRECTION('',(0.0,1.0,0.0));
#372=VECTOR('',#371,0.375000000000000);
#373=LINE('',#370,#372);
#374=EDGE_CURVE('',#363,#347,#373,.T.);
#375=ORIENTED_EDGE('',*,*,#374,.T.);
#376=EDGE_LOOP('',(#353,#361,#369,#375));
#377=FACE_OUTER_BOUND('',#376,.T.);
#378=ADVANCED_FACE('',(#377),#343,.F.);
#379=CARTESIAN_POINT('',(7.723591123498917,9.799227688942846,0.229000000000000));
#380=DIRECTION('',(0.0,1.0,0.0));
#381=DIRECTION('',(1.0,0.0,0.0));
#382=AXIS2_PLACEMENT_3D('',#379,#380,#381);
#383=CYLINDRICAL_SURFACE('',#382,0.078000000000000);
#384=CARTESIAN_POINT('',(7.723591123498917,10.174227688942846,0.151000000000000));
#385=VERTEX_POINT('',#384);
#386=CARTESIAN_POINT('',(7.723591123498917,10.174227688942846,0.229000000000000));
#387=DIRECTION('',(0.0,-1.0,0.0));
#388=DIRECTION('',(1.0,0.0,0.0));
#389=AXIS2_PLACEMENT_3D('',#386,#387,#388);
#390=CIRCLE('',#389,0.078000000000000);
#391=EDGE_CURVE('',#347,#385,#390,.T.);
#392=ORIENTED_EDGE('',*,*,#391,.F.);
#393=ORIENTED_EDGE('',*,*,#374,.F.);
#394=CARTESIAN_POINT('',(7.723591123498917,9.799227688942846,0.151000000000000));
#395=VERTEX_POINT('',#394);
#396=CARTESIAN_POINT('',(7.723591123498917,9.799227688942846,0.229000000000000));
#397=DIRECTION('',(0.0,1.0,0.0));
#398=DIRECTION('',(1.0,0.0,0.0));
#399=AXIS2_PLACEMENT_3D('',#396,#397,#398);
#400=CIRCLE('',#399,0.078000000000000);
#401=EDGE_CURVE('',#395,#363,#400,.T.);
#402=ORIENTED_EDGE('',*,*,#401,.F.);
#403=CARTESIAN_POINT('',(7.723591123498917,9.799227688942846,0.151000000000000));
#404=DIRECTION('',(0.0,1.0,0.0));
#405=VECTOR('',#404,0.375000000000000);
#406=LINE('',#403,#405);
#407=EDGE_CURVE('',#395,#385,#406,.T.);
#408=ORIENTED_EDGE('',*,*,#407,.T.);
#409=EDGE_LOOP('',(#392,#393,#402,#408));
#410=FACE_OUTER_BOUND('',#409,.T.);
#411=ADVANCED_FACE('',(#410),#383,.F.);
#412=CARTESIAN_POINT('',(7.723591123498917,9.799227688942846,0.151000000000000));
#413=DIRECTION('',(0.0,0.0,-1.0));
#414=DIRECTION('',(-1.0,0.0,0.0));
#415=AXIS2_PLACEMENT_3D('',#412,#413,#414);
#416=PLANE('',#415);
#417=CARTESIAN_POINT('',(8.223591123498917,10.174227688942846,0.151000000000000));
#418=VERTEX_POINT('',#417);
#419=CARTESIAN_POINT('',(7.723591123498917,10.174227688942846,0.151000000000000));
#420=DIRECTION('',(1.0,0.0,0.0));
#421=VECTOR('',#420,0.500000000000000);
#422=LINE('',#419,#421);
#423=EDGE_CURVE('',#385,#418,#422,.T.);
#424=ORIENTED_EDGE('',*,*,#423,.F.);
#425=ORIENTED_EDGE('',*,*,#407,.F.);
#426=CARTESIAN_POINT('',(8.223591123498917,9.799227688942846,0.151000000000000));
#427=VERTEX_POINT('',#426);
#428=CARTESIAN_POINT('',(8.223591123498917,9.799227688942846,0.151000000000000));
#429=DIRECTION('',(-1.0,0.0,0.0));
#430=VECTOR('',#429,0.500000000000000);
#431=LINE('',#428,#430);
#432=EDGE_CURVE('',#427,#395,#431,.T.);
#433=ORIENTED_EDGE('',*,*,#432,.F.);
#434=CARTESIAN_POINT('',(8.223591123498917,9.799227688942846,0.151000000000000));
#435=DIRECTION('',(0.0,1.0,0.0));
#436=VECTOR('',#435,0.375000000000000);
#437=LINE('',#434,#436);
#438=EDGE_CURVE('',#427,#418,#437,.T.);
#439=ORIENTED_EDGE('',*,*,#438,.T.);
#440=EDGE_LOOP('',(#424,#425,#433,#439));
#441=FACE_OUTER_BOUND('',#440,.T.);
#442=ORIENTED_EDGE('',*,*,#278,.T.);
#443=ORIENTED_EDGE('',*,*,#262,.T.);
#444=EDGE_LOOP('',(#442,#443));
#445=FACE_BOUND('',#444,.T.);
#446=ADVANCED_FACE('',(#441,#445),#416,.F.);
#447=CARTESIAN_POINT('',(8.223591123498917,9.799227688942846,0.229000000000000));
#448=DIRECTION('',(0.0,1.0,0.0));
#449=DIRECTION('',(1.0,0.0,0.0));
#450=AXIS2_PLACEMENT_3D('',#447,#448,#449);
#451=CYLINDRICAL_SURFACE('',#450,0.078000000000000);
#452=CARTESIAN_POINT('',(8.223591123498917,10.174227688942846,0.229000000000000));
#453=DIRECTION('',(0.0,-1.0,0.0));
#454=DIRECTION('',(1.0,0.0,0.0));
#455=AXIS2_PLACEMENT_3D('',#452,#453,#454);
#456=CIRCLE('',#455,0.078000000000000);
#457=EDGE_CURVE('',#418,#345,#456,.T.);
#458=ORIENTED_EDGE('',*,*,#457,.F.);
#459=ORIENTED_EDGE('',*,*,#438,.F.);
#460=CARTESIAN_POINT('',(8.223591123498917,9.799227688942846,0.229000000000000));
#461=DIRECTION('',(0.0,1.0,0.0));
#462=DIRECTION('',(1.0,0.0,0.0));
#463=AXIS2_PLACEMENT_3D('',#460,#461,#462);
#464=CIRCLE('',#463,0.078000000000000);
#465=EDGE_CURVE('',#355,#427,#464,.T.);
#466=ORIENTED_EDGE('',*,*,#465,.F.);
#467=ORIENTED_EDGE('',*,*,#360,.T.);
#468=EDGE_LOOP('',(#458,#459,#466,#467));
#469=FACE_OUTER_BOUND('',#468,.T.);
#470=ADVANCED_FACE('',(#469),#451,.F.);
#471=CARTESIAN_POINT('',(8.498591123498917,10.174227688942844,0.0));
#472=DIRECTION('',(1.0,0.0,0.0));
#473=DIRECTION('',(0.0,0.0,-1.0));
#474=AXIS2_PLACEMENT_3D('',#471,#472,#473);
#475=PLANE('',#474);
#476=CARTESIAN_POINT('',(8.498591123498917,10.174227688942844,0.360000000000000));
#477=VERTEX_POINT('',#476);
#478=CARTESIAN_POINT('',(8.498591123498919,9.799227688942846,0.360000000000000));
#479=VERTEX_POINT('',#478);
#480=CARTESIAN_POINT('',(8.498591123498917,10.174227688942844,0.360000000000000));
#481=DIRECTION('',(0.0,-1.0,0.0));
#482=VECTOR('',#481,0.374999999999998);
#483=LINE('',#480,#482);
#484=EDGE_CURVE('',#477,#479,#483,.T.);
#485=ORIENTED_EDGE('',*,*,#484,.T.);
#486=CARTESIAN_POINT('',(8.498591123498919,9.799227688942846,0.0));
#487=VERTEX_POINT('',#486);
#488=CARTESIAN_POINT('',(8.498591123498919,9.799227688942846,0.0));
#489=DIRECTION('',(0.0,0.0,1.0));
#490=VECTOR('',#489,0.360000000000000);
#491=LINE('',#488,#490);
#492=EDGE_CURVE('',#487,#479,#491,.T.);
#493=ORIENTED_EDGE('',*,*,#492,.F.);
#494=CARTESIAN_POINT('',(8.498591123498917,10.174227688942844,0.0));
#495=VERTEX_POINT('',#494);
#496=CARTESIAN_POINT('',(8.498591123498917,10.174227688942844,0.0));
#497=DIRECTION('',(0.0,-1.0,0.0));
#498=VECTOR('',#497,0.374999999999998);
#499=LINE('',#496,#498);
#500=EDGE_CURVE('',#495,#487,#499,.T.);
#501=ORIENTED_EDGE('',*,*,#500,.F.);
#502=CARTESIAN_POINT('',(8.498591123498917,10.174227688942844,0.0));
#503=DIRECTION('',(0.0,0.0,1.0));
#504=VECTOR('',#503,0.360000000000000);
#505=LINE('',#502,#504);
#506=EDGE_CURVE('',#495,#477,#505,.T.);
#507=ORIENTED_EDGE('',*,*,#506,.T.);
#508=EDGE_LOOP('',(#485,#493,#501,#507));
#509=FACE_OUTER_BOUND('',#508,.T.);
#510=ADVANCED_FACE('',(#509),#475,.T.);
#511=CARTESIAN_POINT('',(8.498591123498919,9.799227688942846,0.0));
#512=DIRECTION('',(0.0,-1.0,0.0));
#513=DIRECTION('',(0.0,0.0,-1.0));
#514=AXIS2_PLACEMENT_3D('',#511,#512,#513);
#515=PLANE('',#514);
#516=CARTESIAN_POINT('',(6.748591123498918,9.799227688942846,0.360000000000000));
#517=VERTEX_POINT('',#516);
#518=CARTESIAN_POINT('',(8.498591123498919,9.799227688942846,0.360000000000000));
#519=DIRECTION('',(-1.0,0.0,0.0));
#520=VECTOR('',#519,1.750000000000001);
#521=LINE('',#518,#520);
#522=EDGE_CURVE('',#479,#517,#521,.T.);
#523=ORIENTED_EDGE('',*,*,#522,.T.);
#524=CARTESIAN_POINT('',(6.748591123498918,9.799227688942846,0.0));
#525=VERTEX_POINT('',#524);
#526=CARTESIAN_POINT('',(6.748591123498918,9.799227688942846,0.0));
#527=DIRECTION('',(0.0,0.0,1.0));
#528=VECTOR('',#527,0.360000000000000);
#529=LINE('',#526,#528);
#530=EDGE_CURVE('',#525,#517,#529,.T.);
#531=ORIENTED_EDGE('',*,*,#530,.F.);
#532=CARTESIAN_POINT('',(8.498591123498919,9.799227688942846,0.0));
#533=DIRECTION('',(-1.0,0.0,0.0));
#534=VECTOR('',#533,1.750000000000001);
#535=LINE('',#532,#534);
#536=EDGE_CURVE('',#487,#525,#535,.T.);
#537=ORIENTED_EDGE('',*,*,#536,.F.);
#538=ORIENTED_EDGE('',*,*,#492,.T.);
#539=EDGE_LOOP('',(#523,#531,#537,#538));
#540=FACE_OUTER_BOUND('',#539,.T.);
#541=ORIENTED_EDGE('',*,*,#310,.T.);
#542=ORIENTED_EDGE('',*,*,#205,.T.);
#543=EDGE_LOOP('',(#541,#542));
#544=FACE_BOUND('',#543,.T.);
#545=ORIENTED_EDGE('',*,*,#334,.T.);
#546=ORIENTED_EDGE('',*,*,#163,.T.);
#547=EDGE_LOOP('',(#545,#546));
#548=FACE_BOUND('',#547,.T.);
#549=ORIENTED_EDGE('',*,*,#432,.T.);
#550=ORIENTED_EDGE('',*,*,#401,.T.);
#551=ORIENTED_EDGE('',*,*,#368,.T.);
#552=ORIENTED_EDGE('',*,*,#465,.T.);
#553=EDGE_LOOP('',(#549,#550,#551,#552));
#554=FACE_BOUND('',#553,.T.);
#555=ADVANCED_FACE('',(#540,#544,#548,#554),#515,.T.);
#556=CARTESIAN_POINT('',(6.748591123498918,9.799227688942846,0.0));
#557=DIRECTION('',(-1.0,0.0,0.0));
#558=DIRECTION('',(0.0,0.0,1.0));
#559=AXIS2_PLACEMENT_3D('',#556,#557,#558);
#560=PLANE('',#559);
#561=CARTESIAN_POINT('',(6.748591123498918,10.174227688942846,0.360000000000000));
#562=VERTEX_POINT('',#561);
#563=CARTESIAN_POINT('',(6.748591123498918,9.799227688942846,0.360000000000000));
#564=DIRECTION('',(0.0,1.0,0.0));
#565=VECTOR('',#564,0.375000000000000);
#566=LINE('',#563,#565);
#567=EDGE_CURVE('',#517,#562,#566,.T.);
#568=ORIENTED_EDGE('',*,*,#567,.T.);
#569=CARTESIAN_POINT('',(6.748591123498918,10.174227688942846,0.0));
#570=VERTEX_POINT('',#569);
#571=CARTESIAN_POINT('',(6.748591123498918,10.174227688942846,0.0));
#572=DIRECTION('',(0.0,0.0,1.0));
#573=VECTOR('',#572,0.360000000000000);
#574=LINE('',#571,#573);
#575=EDGE_CURVE('',#570,#562,#574,.T.);
#576=ORIENTED_EDGE('',*,*,#575,.F.);
#577=CARTESIAN_POINT('',(6.748591123498918,9.799227688942846,0.0));
#578=DIRECTION('',(0.0,1.0,0.0));
#579=VECTOR('',#578,0.375000000000000);
#580=LINE('',#577,#579);
#581=EDGE_CURVE('',#525,#570,#580,.T.);
#582=ORIENTED_EDGE('',*,*,#581,.F.);
#583=ORIENTED_EDGE('',*,*,#530,.T.);
#584=EDGE_LOOP('',(#568,#576,#582,#583));
#585=FACE_OUTER_BOUND('',#584,.T.);
#586=ADVANCED_FACE('',(#585),#560,.T.);
#587=CARTESIAN_POINT('',(6.748591123498918,10.174227688942846,0.0));
#588=DIRECTION('',(0.0,1.0,0.0));
#589=DIRECTION('',(0.0,0.0,1.0));
#590=AXIS2_PLACEMENT_3D('',#587,#588,#589);
#591=PLANE('',#590);
#592=CARTESIAN_POINT('',(6.748591123498918,10.174227688942846,0.360000000000000));
#593=DIRECTION('',(1.0,0.0,0.0));
#594=VECTOR('',#593,1.749999999999999);
#595=LINE('',#592,#594);
#596=EDGE_CURVE('',#562,#477,#595,.T.);
#597=ORIENTED_EDGE('',*,*,#596,.T.);
#598=ORIENTED_EDGE('',*,*,#506,.F.);
#599=CARTESIAN_POINT('',(6.748591123498918,10.174227688942846,0.0));
#600=DIRECTION('',(1.0,0.0,0.0));
#601=VECTOR('',#600,1.749999999999999);
#602=LINE('',#599,#601);
#603=EDGE_CURVE('',#570,#495,#602,.T.);
#604=ORIENTED_EDGE('',*,*,#603,.F.);
#605=ORIENTED_EDGE('',*,*,#575,.T.);
#606=EDGE_LOOP('',(#597,#598,#604,#605));
#607=FACE_OUTER_BOUND('',#606,.T.);
#608=ORIENTED_EDGE('',*,*,#302,.T.);
#609=ORIENTED_EDGE('',*,*,#220,.T.);
#610=EDGE_LOOP('',(#608,#609));
#611=FACE_BOUND('',#610,.T.);
#612=ORIENTED_EDGE('',*,*,#326,.T.);
#613=ORIENTED_EDGE('',*,*,#178,.T.);
#614=EDGE_LOOP('',(#612,#613));
#615=FACE_BOUND('',#614,.T.);
#616=ORIENTED_EDGE('',*,*,#423,.T.);
#617=ORIENTED_EDGE('',*,*,#457,.T.);
#618=ORIENTED_EDGE('',*,*,#352,.T.);
#619=ORIENTED_EDGE('',*,*,#391,.T.);
#620=EDGE_LOOP('',(#616,#617,#618,#619));
#621=FACE_BOUND('',#620,.T.);
#622=ADVANCED_FACE('',(#607,#611,#615,#621),#591,.T.);
#623=CARTESIAN_POINT('',(8.498591123498917,10.174227688942844,0.360000000000000));
#624=DIRECTION('',(0.0,0.0,1.0));
#625=DIRECTION('',(1.0,0.0,0.0));
#626=AXIS2_PLACEMENT_3D('',#623,#624,#625);
#627=PLANE('',#626);
#628=ORIENTED_EDGE('',*,*,#484,.F.);
#629=ORIENTED_EDGE('',*,*,#596,.F.);
#630=ORIENTED_EDGE('',*,*,#567,.F.);
#631=ORIENTED_EDGE('',*,*,#522,.F.);
#632=EDGE_LOOP('',(#628,#629,#630,#631));
#633=FACE_OUTER_BOUND('',#632,.T.);
#634=ADVANCED_FACE('',(#633),#627,.T.);
#635=CARTESIAN_POINT('',(7.623591123498917,9.986727688942846,0.0));
#636=DIRECTION('',(0.0,0.0,1.0));
#637=DIRECTION('',(1.0,0.0,0.0));
#638=AXIS2_PLACEMENT_3D('',#635,#636,#637);
#639=PLANE('',#638);
#640=ORIENTED_EDGE('',*,*,#603,.T.);
#641=ORIENTED_EDGE('',*,*,#500,.T.);
#642=ORIENTED_EDGE('',*,*,#536,.T.);
#643=ORIENTED_EDGE('',*,*,#581,.T.);
#644=EDGE_LOOP('',(#640,#641,#642,#643));
#645=FACE_OUTER_BOUND('',#644,.T.);
#646=ORIENTED_EDGE('',*,*,#286,.T.);
#647=ORIENTED_EDGE('',*,*,#247,.T.);
#648=EDGE_LOOP('',(#646,#647));
#649=FACE_BOUND('',#648,.T.);
#650=ADVANCED_FACE('',(#645,#649),#639,.F.);
#651=CLOSED_SHELL('',(#182,#224,#266,#290,#314,#338,#378,#411,#446,#470,#510,#555,#586,#622,#634,#650));
#652=MANIFOLD_SOLID_BREP('2699',#651);
#653=ADVANCED_BREP_SHAPE_REPRESENTATION('ABSR1',(#652),#134);
#654=SHAPE_REPRESENTATION_RELATIONSHIP('SRRPL1',' ',#653,#138);
#655=CARTESIAN_POINT('NONE',(-7.746711450967052,-12.521536433532223,-1.618375233514922));
#656=DIRECTION('NONE',(0.0,0.0,1.0));
#657=DIRECTION('NONE',(1.0,0.0,0.0));
#658=AXIS2_PLACEMENT_3D('NONE',#655,#656,#657);
#659=ITEM_DEFINED_TRANSFORMATION('IDT1',' ',#126,#658);
#663=(REPRESENTATION_RELATIONSHIP(' ',' ',#138,#127)REPRESENTATION_RELATIONSHIP_WITH_TRANSFORMATION(#659)SHAPE_REPRESENTATION_RELATIONSHIP());
#664=NEXT_ASSEMBLY_USAGE_OCCURRENCE('NAUO1','OVERLOAD_1','OVERLOAD_1',#98,#137,$);
#665=PRODUCT_DEFINITION_SHAPE('PDS_NAUO1',' ',#664);
#666=CONTEXT_DEPENDENT_SHAPE_REPRESENTATION(#663,#665);
ENDSEC;
END-ISO-10303-21;
